  0
SECTION
  2
HEADER
  9
$ACADVER
  1
AC1015
  9
$ACADMAINTVER
 70
     6
  9
$DWGCODEPAGE
  3
ANSI_1254
  9
$INSBASE
 10
0.0
 20
0.0
 30
0.0
  9
$EXTMIN
 10
0.0
 20
0.0
 30
0.0
  9
$EXTMAX
 10
279.4
 20
215.9
 30
0.0
  9
$LIMMIN
 10
0.0
 20
0.0
  9
$LIMMAX
 10
279.4
 20
215.9
  9
$ORTHOMODE
 70
     0
  9
$REGENMODE
 70
     1
  9
$FILLMODE
 70
     1
  9
$QTEXTMODE
 70
     0
  9
$MIRRTEXT
 70
     1
  9
$LTSCALE
 40
1.0
  9
$ATTMODE
 70
     1
  9
$TEXTSIZE
 40
3.5
  9
$TRACEWID
 40
1.0
  9
$TEXTSTYLE
  7
Standard
  9
$CLAYER
  8
0
  9
$CELTYPE
  6
ByLayer
  9
$CECOLOR
 62
   256
  9
$CELTSCALE
 40
1.0
  9
$DISPSILH
 70
     0
  9
$DIMSCALE
 40
1.0
  9
$DIMASZ
 40
3.5
  9
$DIMEXO
 40
1.0
  9
$DIMDLI
 40
3.75
  9
$DIMRND
 40
0.0
  9
$DIMDLE
 40
0.0
  9
$DIMEXE
 40
1.0
  9
$DIMTP
 40
0.0
  9
$DIMTM
 40
0.0
  9
$DIMTXT
 40
3.5
  9
$DIMCEN
 40
2.5
  9
$DIMTSZ
 40
0.0
  9
$DIMTOL
 70
     0
  9
$DIMLIM
 70
     0
  9
$DIMTIH
 70
     1
  9
$DIMTOH
 70
     1
  9
$DIMSE1
 70
     0
  9
$DIMSE2
 70
     0
  9
$DIMTAD
 70
     1
  9
$DIMZIN
 70
     0
  9
$DIMBLK
  1

  9
$DIMASO
 70
     1
  9
$DIMSHO
 70
     1
  9
$DIMPOST
  1

  9
$DIMAPOST
  1

  9
$DIMALT
 70
     0
  9
$DIMALTD
 70
     3
  9
$DIMALTF
 40
0.0393700787
  9
$DIMLFAC
 40
1.0
  9
$DIMTOFL
 70
     1
  9
$DIMTVP
 40
0.0
  9
$DIMTIX
 70
     0
  9
$DIMSOXD
 70
     0
  9
$DIMSAH
 70
     0
  9
$DIMBLK1
  1

  9
$DIMBLK2
  1

  9
$DIMSTYLE
  2
ISO-25
  9
$DIMCLRD
 70
     0
  9
$DIMCLRE
 70
     0
  9
$DIMCLRT
 70
     0
  9
$DIMTFAC
 40
1.0
  9
$DIMGAP
 40
1.524
  9
$DIMJUST
 70
     0
  9
$DIMSD1
 70
     0
  9
$DIMSD2
 70
     0
  9
$DIMTOLJ
 70
     0
  9
$DIMTZIN
 70
     0
  9
$DIMALTZ
 70
     0
  9
$DIMALTTZ
 70
     0
  9
$DIMUPT
 70
     0
  9
$DIMDEC
 70
     2
  9
$DIMTDEC
 70
     2
  9
$DIMALTU
 70
     2
  9
$DIMALTTD
 70
     3
  9
$DIMTXSTY
  7
Standard
  9
$DIMAUNIT
 70
     0
  9
$DIMADEC
 70
     2
  9
$DIMALTRND
 40
0.0
  9
$DIMAZIN
 70
     0
  9
$DIMDSEP
 70
    44
  9
$DIMATFIT
 70
     3
  9
$DIMFRAC
 70
     0
  9
$DIMLDRBLK
  1

  9
$DIMLUNIT
 70
     2
  9
$DIMLWD
 70
    -2
  9
$DIMLWE
 70
    -2
  9
$DIMTMOVE
 70
     0
  9
$LUNITS
 70
     2
  9
$LUPREC
 70
     2
  9
$SKETCHINC
 40
1.0
  9
$FILLETRAD
 40
10.0
  9
$AUNITS
 70
     0
  9
$AUPREC
 70
     2
  9
$MENU
  1
.
  9
$ELEVATION
 40
0.0
  9
$PELEVATION
 40
0.0
  9
$THICKNESS
 40
0.0
  9
$LIMCHECK
 70
     0
  9
$CHAMFERA
 40
0.0
  9
$CHAMFERB
 40
0.0
  9
$CHAMFERC
 40
0.0
  9
$CHAMFERD
 40
0.0
  9
$SKPOLY
 70
     0
  9
$TDCREATE
 40
2459935.699399908
  9
$TDUCREATE
 40
2459935.574399908
  9
$TDUPDATE
 40
2459935.699400092
  9
$TDUUPDATE
 40
2459935.574400092
  9
$TDINDWG
 40
0.0000000116
  9
$TDUSRTIMER
 40
0.0000000116
  9
$USRTIMER
 70
     1
  9
$ANGBASE
 50
0.0
  9
$ANGDIR
 70
     0
  9
$PDMODE
 70
     0
  9
$PDSIZE
 40
-1.0
  9
$PLINEWID
 40
0.0
  9
$SPLFRAME
 70
     0
  9
$SPLINETYPE
 70
     6
  9
$SPLINESEGS
 70
     8
  9
$HANDSEED
  5
EE
  9
$SURFTAB1
 70
     6
  9
$SURFTAB2
 70
     6
  9
$SURFTYPE
 70
     6
  9
$SURFU
 70
     6
  9
$SURFV
 70
     6
  9
$UCSBASE
  2

  9
$UCSNAME
  2

  9
$UCSORG
 10
0.0
 20
0.0
 30
0.0
  9
$UCSXDIR
 10
1.0
 20
0.0
 30
0.0
  9
$UCSYDIR
 10
0.0
 20
1.0
 30
0.0
  9
$UCSORTHOREF
  2

  9
$UCSORTHOVIEW
 70
     0
  9
$UCSORGTOP
 10
0.0
 20
0.0
 30
0.0
  9
$UCSORGBOTTOM
 10
0.0
 20
0.0
 30
0.0
  9
$UCSORGLEFT
 10
0.0
 20
0.0
 30
0.0
  9
$UCSORGRIGHT
 10
0.0
 20
0.0
 30
0.0
  9
$UCSORGFRONT
 10
0.0
 20
0.0
 30
0.0
  9
$UCSORGBACK
 10
0.0
 20
0.0
 30
0.0
  9
$PUCSBASE
  2

  9
$PUCSNAME
  2

  9
$PUCSORG
 10
0.0
 20
0.0
 30
0.0
  9
$PUCSXDIR
 10
1.0
 20
0.0
 30
0.0
  9
$PUCSYDIR
 10
0.0
 20
1.0
 30
0.0
  9
$PUCSORTHOREF
  2

  9
$PUCSORTHOVIEW
 70
     0
  9
$PUCSORGTOP
 10
0.0
 20
0.0
 30
0.0
  9
$PUCSORGBOTTOM
 10
0.0
 20
0.0
 30
0.0
  9
$PUCSORGLEFT
 10
0.0
 20
0.0
 30
0.0
  9
$PUCSORGRIGHT
 10
0.0
 20
0.0
 30
0.0
  9
$PUCSORGFRONT
 10
0.0
 20
0.0
 30
0.0
  9
$PUCSORGBACK
 10
0.0
 20
0.0
 30
0.0
  9
$USERI1
 70
     0
  9
$USERI2
 70
     0
  9
$USERI3
 70
     0
  9
$USERI4
 70
     0
  9
$USERI5
 70
     0
  9
$USERR1
 40
0.0
  9
$USERR2
 40
0.0
  9
$USERR3
 40
0.0
  9
$USERR4
 40
0.0
  9
$USERR5
 40
0.0
  9
$WORLDVIEW
 70
     1
  9
$SHADEDGE
 70
     3
  9
$SHADEDIF
 70
    70
  9
$TILEMODE
 70
     1
  9
$MAXACTVP
 70
    64
  9
$PINSBASE
 10
0.0
 20
0.0
 30
0.0
  9
$PLIMCHECK
 70
     0
  9
$PEXTMIN
 10
1.0000000000E+20
 20
1.0000000000E+20
 30
1.0000000000E+20
  9
$PEXTMAX
 10
-1.0000000000E+20
 20
-1.0000000000E+20
 30
-1.0000000000E+20
  9
$PLIMMIN
 10
0.0
 20
0.0
  9
$PLIMMAX
 10
420.0
 20
297.0
  9
$UNITMODE
 70
     0
  9
$VISRETAIN
 70
     1
  9
$PLINEGEN
 70
     0
  9
$PSLTSCALE
 70
     1
  9
$TREEDEPTH
 70
  3020
  9
$CMLSTYLE
  2
Standard
  9
$CMLJUST
 70
     0
  9
$CMLSCALE
 40
20.0
  9
$PROXYGRAPHICS
 70
     1
  9
$MEASUREMENT
 70
     1
  9
$CELWEIGHT
370
    -1
  9
$ENDCAPS
280
     0
  9
$JOINSTYLE
280
     0
  9
$LWDISPLAY
290
     1
  9
$INSUNITS
 70
     4
  9
$HYPERLINKBASE
  1

  9
$STYLESHEET
  1

  9
$XEDIT
290
     1
  9
$CEPSNTYPE
380
     0
  9
$PSTYLEMODE
290
     1
  9
$FINGERPRINTGUID
  2
{5e2dae94-2af1-48a4-b63f-1382d87a77ef}
  9
$VERSIONGUID
  2
{FAEB1C32-E019-11D5-929B-00C0DF256EC4}
  9
$EXTNAMES
290
     1
  9
$PSVPSCALE
 40
0.0
  9
$OLESTARTUP
290
     0
  0
ENDSEC
  0
SECTION
  2
CLASSES
  0
CLASS
  1
ACDBDICTIONARYWDFLT
  2
AcDbDictionaryWithDefault
  3
ObjectDBX Classes
 90
        0
280
     0
281
     0
  0
CLASS
  1
VISUALSTYLE
  2
AcDbVisualStyle
  3
ObjectDBX Classes
 90
     4095
280
     0
281
     0
  0
CLASS
  1
MATERIAL
  2
AcDbMaterial
  3
ObjectDBX Classes
 90
     1153
280
     0
281
     0
  0
CLASS
  1
SCALE
  2
AcDbScale
  3
ObjectDBX Classes
 90
     1153
280
     0
281
     0
  0
CLASS
  1
TABLESTYLE
  2
AcDbTableStyle
  3
ObjectDBX Classes
 90
     4095
280
     0
281
     0
  0
CLASS
  1
MLEADERSTYLE
  2
AcDbMLeaderStyle
  3
ACDB_MLEADERSTYLE_CLASS
 90
     4095
280
     0
281
     0
  0
CLASS
  1
SUN
  2
AcDbSun
  3
SCENEOE
 90
     1153
280
     0
281
     0
  0
CLASS
  1
ACDBPLACEHOLDER
  2
AcDbPlaceHolder
  3
ObjectDBX Classes
 90
        0
280
     0
281
     0
  0
CLASS
  1
LAYOUT
  2
AcDbLayout
  3
ObjectDBX Classes
 90
        0
280
     0
281
     0
  0
ENDSEC
  0
SECTION
  2
TABLES
  0
TABLE
  2
VPORT
  5
8
330
0
100
AcDbSymbolTable
 70
     1
  0
VPORT
  5
29
330
8
100
AcDbSymbolTableRecord
100
AcDbViewportTableRecord
  2
*Active
 70
     0
 10
0.0
 20
0.0
 11
1.0
 21
1.0
 12
139.7
 22
107.95
 13
0.0
 23
0.0
 14
10.0
 24
10.0
 15
10.0
 25
10.0
 16
0.0
 26
0.0
 36
1.0
 17
0.0
 27
0.0
 37
0.0
 40
215.9
 41
1.2941176471
 42
50.0
 43
0.0
 44
0.0
 50
0.0
 51
0.0
 71
     0
 72
  2000
 73
     1
 74
     3
 75
     0
 76
     0
 77
     0
 78
     0
281
     0
 65
     1
110
0.0
120
0.0
130
0.0
111
1.0
121
0.0
131
0.0
112
0.0
122
1.0
132
0.0
 79
     0
146
0.0
  0
ENDTAB
  0
TABLE
  2
LTYPE
  5
5
330
0
100
AcDbSymbolTable
 70
     6
  0
LTYPE
  5
14
330
5
100
AcDbSymbolTableRecord
100
AcDbLinetypeTableRecord
  2
ByBlock
 70
     0
  3

 72
    65
 73
     0
 40
0.0
  0
LTYPE
  5
15
330
5
100
AcDbSymbolTableRecord
100
AcDbLinetypeTableRecord
  2
ByLayer
 70
     0
  3

 72
    65
 73
     0
 40
0.0
  0
LTYPE
  5
16
330
5
100
AcDbSymbolTableRecord
100
AcDbLinetypeTableRecord
  2
Continuous
 70
     0
  3
Solid line
 72
    65
 73
     0
 40
0.0
  0
LTYPE
  5
6E
330
5
100
AcDbSymbolTableRecord
100
AcDbLinetypeTableRecord
  2
HIDDEN
 70
     0
  3
Hidden __ __ __ __ __ __ __ __ __ __ __ __ __ __
 72
    65
 73
     2
 40
1.905
 49
1.27
 74
     0
 49
-0.635
 74
     0
  0
LTYPE
  5
6F
330
5
100
AcDbSymbolTableRecord
100
AcDbLinetypeTableRecord
  2
PHANTOM
 70
     0
  3
Phantom ______  __  __  ______  __  __  ______
 72
    65
 73
     6
 40
12.7
 49
6.35
 74
     0
 49
-1.27
 74
     0
 49
1.27
 74
     0
 49
-1.27
 74
     0
 49
1.27
 74
     0
 49
-1.27
 74
     0
  0
LTYPE
  5
70
330
5
100
AcDbSymbolTableRecord
100
AcDbLinetypeTableRecord
  2
CENTER
 70
     0
  3
Center ____ _ ____ _ ____ _ ____ _ ____ _ ____
 72
    65
 73
     4
 40
10.16
 49
6.35
 74
     0
 49
-1.27
 74
     0
 49
1.27
 74
     0
 49
-1.27
 74
     0
  0
LTYPE
  5
71
330
5
100
AcDbSymbolTableRecord
100
AcDbLinetypeTableRecord
  2
CENTERX2
 70
     0
  3
Center (2x) ________  __  ________  __  _____
 72
    65
 73
     4
 40
20.32
 49
12.7
 74
     0
 49
-2.54
 74
     0
 49
2.54
 74
     0
 49
-2.54
 74
     0
  0
LTYPE
  5
72
330
5
100
AcDbSymbolTableRecord
100
AcDbLinetypeTableRecord
  2
DOT2
 70
     0
  3
Dot (.5x) ........................................
 72
    65
 73
     2
 40
0.635
 49
0.0
 74
     0
 49
-0.635
 74
     0
  0
ENDTAB
  0
TABLE
  2
LAYER
  5
2
330
0
100
AcDbSymbolTable
 70
    17
  0
LAYER
  5
10
330
2
100
AcDbSymbolTableRecord
100
AcDbLayerTableRecord
  2
0
 70
     0
 62
     7
  6
Continuous
370
    -3
390
F
  0
LAYER
  5
73
330
2
100
AcDbSymbolTableRecord
100
AcDbLayerTableRecord
  2
FORMAT
 70
     0
 62
     7
  6
Continuous
370
    -3
390
F
  0
LAYER
  5
74
330
2
100
AcDbSymbolTableRecord
100
AcDbLayerTableRecord
  2
YARDIMCI_GEOMETRI
 70
     0
 62
    -6
  6
Continuous
290
     0
370
    -3
390
F
  0
LAYER
  5
75
330
2
100
AcDbSymbolTableRecord
100
AcDbLayerTableRecord
  2
SAYFA_CERCEVESI
 70
     0
 62
     7
  6
Continuous
370
    25
390
F
  0
LAYER
  5
76
330
2
100
AcDbSymbolTableRecord
100
AcDbLayerTableRecord
  2
ANTET
 70
     0
 62
     7
  6
Continuous
370
    -3
390
F
  0
LAYER
  5
77
330
2
100
AcDbSymbolTableRecord
100
AcDbLayerTableRecord
  2
OLCU
 70
     0
 62
   150
  6
Continuous
370
    -3
390
F
  0
LAYER
  5
78
330
2
100
AcDbSymbolTableRecord
100
AcDbLayerTableRecord
  2
METIN
 70
     0
 62
    96
  6
Continuous
370
    -3
390
F
  0
LAYER
  5
79
330
2
100
AcDbSymbolTableRecord
100
AcDbLayerTableRecord
  2
BALON
 70
     0
 62
     5
  6
Continuous
370
    -3
390
F
  0
LAYER
  5
7A
330
2
100
AcDbSymbolTableRecord
100
AcDbLayerTableRecord
  2
VURGU
 70
     0
 62
     7
  6
Continuous
370
    -3
390
F
  0
LAYER
  5
7B
330
2
100
AcDbSymbolTableRecord
100
AcDbLayerTableRecord
  2
SILIK
 70
     0
 62
     7
  6
Continuous
370
    -3
390
F
  0
LAYER
  5
7C
330
2
100
AcDbSymbolTableRecord
100
AcDbLayerTableRecord
  2
MODEL
 70
     0
 62
     7
  6
Continuous
370
    -3
390
F
  0
LAYER
  5
7D
330
2
100
AcDbSymbolTableRecord
100
AcDbLayerTableRecord
  2
DETAYLANDıRMA
 70
     0
 62
   190
  6
Continuous
370
    -3
390
F
  0
LAYER
  5
7E
330
2
100
AcDbSymbolTableRecord
100
AcDbLayerTableRecord
  2
TOLERANS
 70
     0
 62
   230
  6
Continuous
370
    -3
390
F
  0
LAYER
  5
7F
330
2
100
AcDbSymbolTableRecord
100
AcDbLayerTableRecord
  2
MERKEZ_CIZGILERI
 70
     0
 62
    30
  6
Continuous
370
    -3
390
F
  0
LAYER
  5
80
330
2
100
AcDbSymbolTableRecord
100
AcDbLayerTableRecord
  2
KESIT-DETAY_CIZGILERI
 70
     0
 62
     7
  6
Continuous
370
    -3
390
F
  0
LAYER
  5
81
330
2
100
AcDbSymbolTableRecord
100
AcDbLayerTableRecord
  2
\U+041E\U+0421\U+0415\U+0412\U+042B\U+0415
 70
     0
 62
     7
  6
Continuous
370
    -3
390
F
  0
LAYER
  5
82
330
2
100
AcDbSymbolTableRecord
100
AcDbLayerTableRecord
  2
\U+0412\U+041E\U+0414\U+042F\U+041D\U+042B\U+0415_\U+0417\U+041D\U+0410\U+041A\U+0418
 70
     0
 62
    11
  6
Continuous
370
    -3
390
F
  0
ENDTAB
  0
TABLE
  2
STYLE
  5
3
330
0
100
AcDbSymbolTable
 70
     1
  0
STYLE
  5
11
330
3
100
AcDbSymbolTableRecord
100
AcDbTextStyleTableRecord
  2
Standard
 70
     0
 40
0.0
 41
1.0
 50
0.0
 71
     0
 42
3.5
  3
txt
  4

  0
ENDTAB
  0
TABLE
  2
VIEW
  5
6
330
0
100
AcDbSymbolTable
 70
     0
  0
ENDTAB
  0
TABLE
  2
UCS
  5
7
330
0
100
AcDbSymbolTable
 70
     0
  0
ENDTAB
  0
TABLE
  2
APPID
  5
9
330
0
100
AcDbSymbolTable
 70
     1
  0
APPID
  5
12
330
9
100
AcDbSymbolTableRecord
100
AcDbRegAppTableRecord
  2
ACAD
 70
     0
  0
ENDTAB
  0
TABLE
  2
DIMSTYLE
  5
A
330
0
100
AcDbSymbolTable
 70
     1
100
AcDbDimStyleTable
  0
DIMSTYLE
105
27
330
A
100
AcDbSymbolTableRecord
100
AcDbDimStyleTableRecord
  2
ISO-25
 70
     0
 41
2.5
 42
0.625
 43
3.75
 44
1.25
 73
     0
 74
     0
 77
     1
 78
     8
140
2.5
141
2.5
143
0.0393700787
147
0.625
171
     3
172
     1
178
     0
271
     2
272
     2
274
     3
278
    44
283
     0
284
     8
340
11
  0
ENDTAB
  0
TABLE
  2
BLOCK_RECORD
  5
1
330
0
100
AcDbSymbolTable
 70
     5
  0
BLOCK_RECORD
  5
1F
330
1
100
AcDbSymbolTableRecord
100
AcDbBlockTableRecord
  2
*Model_Space
340
22
  0
BLOCK_RECORD
  5
1B
330
1
100
AcDbSymbolTableRecord
100
AcDbBlockTableRecord
  2
*Paper_Space
340
1E
  0
BLOCK_RECORD
  5
23
330
1
100
AcDbSymbolTableRecord
100
AcDbBlockTableRecord
  2
*Paper_Space0
340
26
  0
BLOCK_RECORD
  5
97
330
1
100
AcDbSymbolTableRecord
100
AcDbBlockTableRecord
  2
SW_CENTERMARKSYMBOL_0
340
0
102
{BLKREFS
331
A2
102
}
  0
BLOCK_RECORD
  5
AC
330
1
100
AcDbSymbolTableRecord
100
AcDbBlockTableRecord
  2
SW_CENTERMARKSYMBOL_1
340
0
102
{BLKREFS
331
B7
102
}
  0
BLOCK_RECORD
  5
BF
330
1
100
AcDbSymbolTableRecord
100
AcDbBlockTableRecord
  2
SW_CENTERMARKSYMBOL_2
340
0
102
{BLKREFS
331
CA
102
}
  0
BLOCK_RECORD
  5
D2
330
1
100
AcDbSymbolTableRecord
100
AcDbBlockTableRecord
  2
SW_CENTERMARKSYMBOL_3
340
0
102
{BLKREFS
331
DD
102
}
  0
ENDTAB
  0
ENDSEC
  0
SECTION
  2
BLOCKS
  0
BLOCK
  5
20
330
1F
100
AcDbEntity
  8
0
100
AcDbBlockBegin
  2
*Model_Space
 70
     0
 10
0.0
 20
0.0
 30
0.0
  3
*Model_Space
  1

  0
ENDBLK
  5
21
330
1F
100
AcDbEntity
  8
0
100
AcDbBlockEnd
  0
BLOCK
  5
1C
330
1B
100
AcDbEntity
 67
     1
  8
0
100
AcDbBlockBegin
  2
*Paper_Space
 70
     0
 10
0.0
 20
0.0
 30
0.0
  3
*Paper_Space
  1

  0
ENDBLK
  5
1D
330
1B
100
AcDbEntity
 67
     1
  8
0
100
AcDbBlockEnd
  0
BLOCK
  5
24
330
23
100
AcDbEntity
  8
0
100
AcDbBlockBegin
  2
*Paper_Space0
 70
     0
 10
0.0
 20
0.0
 30
0.0
  3
*Paper_Space0
  1

  0
ENDBLK
  5
25
330
23
100
AcDbEntity
  8
0
100
AcDbBlockEnd
  0
BLOCK
  5
98
330
97
100
AcDbEntity
  8
0
100
AcDbBlockBegin
  2
SW_CENTERMARKSYMBOL_0
 70
     0
 10
0.0
 20
0.0
 30
0.0
  3
SW_CENTERMARKSYMBOL_0
  1

  0
LINE
  5
9A
330
97
100
AcDbEntity
  8
FORMAT
 62
     0
100
AcDbLine
 10
0.0
 20
0.0
 30
0.0
 11
0.0
 21
2.5
 31
0.0
  0
LINE
  5
9B
330
97
100
AcDbEntity
  8
FORMAT
 62
     0
100
AcDbLine
 10
0.0
 20
0.0
 30
0.0
 11
-2.5
 21
0.0
 31
0.0
  0
LINE
  5
9C
330
97
100
AcDbEntity
  8
FORMAT
 62
     0
100
AcDbLine
 10
0.0
 20
0.0
 30
0.0
 11
0.0
 21
-2.5
 31
0.0
  0
LINE
  5
9D
330
97
100
AcDbEntity
  8
FORMAT
 62
     0
100
AcDbLine
 10
0.0
 20
0.0
 30
0.0
 11
2.5
 21
0.0
 31
0.0
  0
LINE
  5
9E
330
97
100
AcDbEntity
  8
FORMAT
 62
     0
100
AcDbLine
 10
0.0
 20
5.0
 30
0.0
 11
0.0
 21
102.5
 31
0.0
  0
LINE
  5
9F
330
97
100
AcDbEntity
  8
FORMAT
 62
     0
100
AcDbLine
 10
-5.0
 20
0.0
 30
0.0
 11
-102.5
 21
0.0
 31
0.0
  0
LINE
  5
A0
330
97
100
AcDbEntity
  8
FORMAT
 62
     0
100
AcDbLine
 10
0.0
 20
-5.0
 30
0.0
 11
0.0
 21
-102.5
 31
0.0
  0
LINE
  5
A1
330
97
100
AcDbEntity
  8
FORMAT
 62
     0
100
AcDbLine
 10
5.0
 20
0.0
 30
0.0
 11
102.5
 21
0.0
 31
0.0
  0
ENDBLK
  5
99
330
97
100
AcDbEntity
  8
0
100
AcDbBlockEnd
  0
BLOCK
  5
AD
330
AC
100
AcDbEntity
  8
0
100
AcDbBlockBegin
  2
SW_CENTERMARKSYMBOL_1
 70
     0
 10
0.0
 20
0.0
 30
0.0
  3
SW_CENTERMARKSYMBOL_1
  1

  0
LINE
  5
AF
330
AC
100
AcDbEntity
  8
FORMAT
 62
     0
100
AcDbLine
 10
0.0
 20
0.0
 30
0.0
 11
0.0
 21
2.5
 31
0.0
  0
LINE
  5
B0
330
AC
100
AcDbEntity
  8
FORMAT
 62
     0
100
AcDbLine
 10
0.0
 20
0.0
 30
0.0
 11
-2.5
 21
0.0
 31
0.0
  0
LINE
  5
B1
330
AC
100
AcDbEntity
  8
FORMAT
 62
     0
100
AcDbLine
 10
0.0
 20
0.0
 30
0.0
 11
0.0
 21
-2.5
 31
0.0
  0
LINE
  5
B2
330
AC
100
AcDbEntity
  8
FORMAT
 62
     0
100
AcDbLine
 10
0.0
 20
0.0
 30
0.0
 11
2.5
 21
0.0
 31
0.0
  0
LINE
  5
B3
330
AC
100
AcDbEntity
  8
FORMAT
 62
     0
100
AcDbLine
 10
0.0
 20
5.0
 30
0.0
 11
0.0
 21
102.5
 31
0.0
  0
LINE
  5
B4
330
AC
100
AcDbEntity
  8
FORMAT
 62
     0
100
AcDbLine
 10
-5.0
 20
0.0
 30
0.0
 11
-102.5
 21
0.0
 31
0.0
  0
LINE
  5
B5
330
AC
100
AcDbEntity
  8
FORMAT
 62
     0
100
AcDbLine
 10
0.0
 20
-5.0
 30
0.0
 11
0.0
 21
-102.5
 31
0.0
  0
LINE
  5
B6
330
AC
100
AcDbEntity
  8
FORMAT
 62
     0
100
AcDbLine
 10
5.0
 20
0.0
 30
0.0
 11
102.5
 21
0.0
 31
0.0
  0
ENDBLK
  5
AE
330
AC
100
AcDbEntity
  8
0
100
AcDbBlockEnd
  0
BLOCK
  5
C0
330
BF
100
AcDbEntity
  8
0
100
AcDbBlockBegin
  2
SW_CENTERMARKSYMBOL_2
 70
     0
 10
0.0
 20
0.0
 30
0.0
  3
SW_CENTERMARKSYMBOL_2
  1

  0
LINE
  5
C2
330
BF
100
AcDbEntity
  8
FORMAT
 62
     0
100
AcDbLine
 10
0.0
 20
0.0
 30
0.0
 11
0.0
 21
2.5
 31
0.0
  0
LINE
  5
C3
330
BF
100
AcDbEntity
  8
FORMAT
 62
     0
100
AcDbLine
 10
0.0
 20
0.0
 30
0.0
 11
-2.5
 21
0.0
 31
0.0
  0
LINE
  5
C4
330
BF
100
AcDbEntity
  8
FORMAT
 62
     0
100
AcDbLine
 10
0.0
 20
0.0
 30
0.0
 11
0.0
 21
-2.5
 31
0.0
  0
LINE
  5
C5
330
BF
100
AcDbEntity
  8
FORMAT
 62
     0
100
AcDbLine
 10
0.0
 20
0.0
 30
0.0
 11
2.5
 21
0.0
 31
0.0
  0
LINE
  5
C6
330
BF
100
AcDbEntity
  8
FORMAT
 62
     0
100
AcDbLine
 10
0.0
 20
5.0
 30
0.0
 11
0.0
 21
102.5
 31
0.0
  0
LINE
  5
C7
330
BF
100
AcDbEntity
  8
FORMAT
 62
     0
100
AcDbLine
 10
-5.0
 20
0.0
 30
0.0
 11
-102.5
 21
0.0
 31
0.0
  0
LINE
  5
C8
330
BF
100
AcDbEntity
  8
FORMAT
 62
     0
100
AcDbLine
 10
0.0
 20
-5.0
 30
0.0
 11
0.0
 21
-102.5
 31
0.0
  0
LINE
  5
C9
330
BF
100
AcDbEntity
  8
FORMAT
 62
     0
100
AcDbLine
 10
5.0
 20
0.0
 30
0.0
 11
102.5
 21
0.0
 31
0.0
  0
ENDBLK
  5
C1
330
BF
100
AcDbEntity
  8
0
100
AcDbBlockEnd
  0
BLOCK
  5
D3
330
D2
100
AcDbEntity
  8
0
100
AcDbBlockBegin
  2
SW_CENTERMARKSYMBOL_3
 70
     0
 10
0.0
 20
0.0
 30
0.0
  3
SW_CENTERMARKSYMBOL_3
  1

  0
LINE
  5
D5
330
D2
100
AcDbEntity
  8
FORMAT
 62
     0
100
AcDbLine
 10
0.0
 20
0.0
 30
0.0
 11
0.0
 21
2.5
 31
0.0
  0
LINE
  5
D6
330
D2
100
AcDbEntity
  8
FORMAT
 62
     0
100
AcDbLine
 10
0.0
 20
0.0
 30
0.0
 11
-2.5
 21
0.0
 31
0.0
  0
LINE
  5
D7
330
D2
100
AcDbEntity
  8
FORMAT
 62
     0
100
AcDbLine
 10
0.0
 20
0.0
 30
0.0
 11
0.0
 21
-2.5
 31
0.0
  0
LINE
  5
D8
330
D2
100
AcDbEntity
  8
FORMAT
 62
     0
100
AcDbLine
 10
0.0
 20
0.0
 30
0.0
 11
2.5
 21
0.0
 31
0.0
  0
LINE
  5
D9
330
D2
100
AcDbEntity
  8
FORMAT
 62
     0
100
AcDbLine
 10
0.0
 20
5.0
 30
0.0
 11
0.0
 21
102.5
 31
0.0
  0
LINE
  5
DA
330
D2
100
AcDbEntity
  8
FORMAT
 62
     0
100
AcDbLine
 10
-5.0
 20
0.0
 30
0.0
 11
-102.5
 21
0.0
 31
0.0
  0
LINE
  5
DB
330
D2
100
AcDbEntity
  8
FORMAT
 62
     0
100
AcDbLine
 10
0.0
 20
-5.0
 30
0.0
 11
0.0
 21
-102.5
 31
0.0
  0
LINE
  5
DC
330
D2
100
AcDbEntity
  8
FORMAT
 62
     0
100
AcDbLine
 10
5.0
 20
0.0
 30
0.0
 11
102.5
 21
0.0
 31
0.0
  0
ENDBLK
  5
D4
330
D2
100
AcDbEntity
  8
0
100
AcDbBlockEnd
  0
ENDSEC
  0
SECTION
  2
ENTITIES
  0
LINE
  5
83
330
1F
100
AcDbEntity
  8
0
  6
Continuous
 62
     7
370
    25
100
AcDbLine
 10
-6.0825816483
 20
83.7765008981
 30
0.0
 11
-6.0825816483
 21
-61.2234991019
 31
0.0
  0
LINE
  5
84
330
1F
100
AcDbEntity
  8
0
  6
Continuous
 62
     7
370
    25
100
AcDbLine
 10
193.9174183517
 20
-61.2234991019
 30
0.0
 11
193.9174183517
 21
83.7765008981
 31
0.0
  0
ARC
  5
85
330
1F
100
AcDbEntity
  8
0
  6
Continuous
 62
     7
370
    25
100
AcDbCircle
 10
193.9174183517
 20
83.7765008981
 30
0.0
 40
200.0000000000001
100
AcDbArc
 50
90.0
 51
180.0
  0
LINE
  5
86
330
1F
100
AcDbEntity
  8
0
  6
Continuous
 62
     7
370
    25
100
AcDbLine
 10
338.9174183517
 20
283.7765008981
 30
0.0
 11
193.9174183517
 21
283.7765008981
 31
0.0
  0
LINE
  5
87
330
1F
100
AcDbEntity
  8
0
  6
Continuous
 62
     7
370
    25
100
AcDbLine
 10
193.9174183517
 20
83.7765008981
 30
0.0
 11
338.9174183517
 21
83.7765008981
 31
0.0
  0
LINE
  5
88
330
1F
100
AcDbEntity
  8
0
  6
Continuous
 62
     7
370
    25
100
AcDbLine
 10
93.9174183517
 20
-61.2234991019
 30
0.0
 11
193.9174183517
 21
-61.2234991019
 31
0.0
  0
LINE
  5
89
330
1F
100
AcDbEntity
  8
0
  6
Continuous
 62
     7
370
    25
100
AcDbLine
 10
-6.0825816483
 20
-61.2234991019
 30
0.0
 11
93.9174183517
 21
-61.2234991019
 31
0.0
  0
LINE
  5
8A
330
1F
100
AcDbEntity
  8
0
  6
Continuous
 62
     7
370
    25
100
AcDbLine
 10
338.9174183517
 20
183.7765008981
 30
0.0
 11
338.9174183517
 21
83.7765008981
 31
0.0
  0
LINE
  5
8B
330
1F
100
AcDbEntity
  8
0
  6
Continuous
 62
     7
370
    25
100
AcDbLine
 10
338.9174183517
 20
283.7765008981
 30
0.0
 11
338.9174183517
 21
183.7765008981
 31
0.0
  0
LINE
  5
8C
330
1F
100
AcDbEntity
  8
0
  6
Continuous
 62
     1
370
    25
100
AcDbLine
 10
-6.0825816483
 20
83.7765008981
 30
0.0
 11
193.9174183517
 21
83.7765008981
 31
0.0
  0
LINE
  5
8D
330
1F
100
AcDbEntity
  8
0
  6
Continuous
 62
     1
370
    25
100
AcDbLine
 10
193.9174183517
 20
283.7765008981
 30
0.0
 11
193.9174183517
 21
83.7765008981
 31
0.0
  0
LINE
  5
8E
330
1F
100
AcDbEntity
  8
0
  6
Continuous
 62
     7
370
    25
100
AcDbLine
 10
-343.7546123356
 20
183.7765008981
 30
0.0
 11
-343.7546123356
 21
83.7765008981
 31
0.0
  0
LINE
  5
8F
330
1F
100
AcDbEntity
  8
0
  6
Continuous
 62
     7
370
    25
100
AcDbLine
 10
-143.7546123356
 20
83.7765008981
 30
0.0
 11
-143.7546123356
 21
183.7765008981
 31
0.0
  0
LINE
  5
90
330
1F
100
AcDbEntity
  8
0
  6
Continuous
 62
     7
370
    25
100
AcDbLine
 10
-343.7546123356
 20
83.7765008981
 30
0.0
 11
-343.7546123356
 21
-61.2234991019
 31
0.0
  0
LINE
  5
91
330
1F
100
AcDbEntity
  8
0
  6
Continuous
 62
     7
370
    25
100
AcDbLine
 10
-143.7546123356
 20
-61.2234991019
 30
0.0
 11
-143.7546123356
 21
83.7765008981
 31
0.0
  0
CIRCLE
  5
92
330
1F
100
AcDbEntity
  8
0
  6
Continuous
 62
     7
370
    25
100
AcDbCircle
 10
-243.7546123356
 20
183.7765008981
 30
0.0
 40
100.0
  0
CIRCLE
  5
93
330
1F
100
AcDbEntity
  8
0
  6
Continuous
 62
     7
370
    25
100
AcDbCircle
 10
-243.7546123356
 20
183.7765008981
 30
0.0
 40
81.80000000000001
  0
LINE
  5
94
330
1F
100
AcDbEntity
  8
0
  6
Continuous
 62
     7
370
    25
100
AcDbLine
 10
-343.7546123356
 20
-61.2234991019
 30
0.0
 11
-143.7546123356
 21
-61.2234991019
 31
0.0
  0
LINE
  5
95
330
1F
100
AcDbEntity
  8
0
  6
Continuous
 62
     1
370
    25
100
AcDbLine
 10
-243.7546123356
 20
83.7765008981
 30
0.0
 11
-143.7546123356
 21
83.7765008981
 31
0.0
  0
LINE
  5
96
330
1F
100
AcDbEntity
  8
0
  6
Continuous
 62
     1
370
    25
100
AcDbLine
 10
-343.7546123356
 20
83.7765008981
 30
0.0
 11
-243.7546123356
 21
83.7765008981
 31
0.0
  0
INSERT
  5
A2
330
1F
100
AcDbEntity
  8
FORMAT
 62
     7
100
AcDbBlockReference
  2
SW_CENTERMARKSYMBOL_0
 10
-243.7546123356
 20
183.7765008981
 30
0.0
  0
LINE
  5
A3
330
1F
100
AcDbEntity
  8
0
  6
Continuous
 62
     7
370
    25
100
AcDbLine
 10
338.9174183517
 20
591.5443685453
 30
0.0
 11
193.9174183517
 21
591.5443685453
 31
0.0
  0
LINE
  5
A4
330
1F
100
AcDbEntity
  8
0
  6
Continuous
 62
     7
370
    25
100
AcDbLine
 10
193.9174183517
 20
391.5443685453
 30
0.0
 11
338.9174183517
 21
391.5443685453
 31
0.0
  0
LINE
  5
A5
330
1F
100
AcDbEntity
  8
0
  6
Continuous
 62
     7
370
    25
100
AcDbLine
 10
193.9174183517
 20
591.5443685453
 30
0.0
 11
93.9174183517
 21
591.5443685453
 31
0.0
  0
LINE
  5
A6
330
1F
100
AcDbEntity
  8
0
  6
Continuous
 62
     7
370
    25
100
AcDbLine
 10
93.9174183517
 20
391.5443685453
 30
0.0
 11
193.9174183517
 21
391.5443685453
 31
0.0
  0
CIRCLE
  5
A7
330
1F
100
AcDbEntity
  8
0
  6
Continuous
 62
     7
370
    25
100
AcDbCircle
 10
93.9174183517
 20
491.5443685453
 30
0.0
 40
81.79999999999995
  0
CIRCLE
  5
A8
330
1F
100
AcDbEntity
  8
0
  6
Continuous
 62
     7
370
    25
100
AcDbCircle
 10
93.9174183517
 20
491.5443685453
 30
0.0
 40
100.0
  0
LINE
  5
A9
330
1F
100
AcDbEntity
  8
0
  6
Continuous
 62
     7
370
    25
100
AcDbLine
 10
338.9174183517
 20
591.5443685453
 30
0.0
 11
338.9174183517
 21
391.5443685453
 31
0.0
  0
LINE
  5
AA
330
1F
100
AcDbEntity
  8
0
  6
Continuous
 62
     1
370
    25
100
AcDbLine
 10
193.9174183517
 20
491.5443685453
 30
0.0
 11
193.9174183517
 21
391.5443685453
 31
0.0
  0
LINE
  5
AB
330
1F
100
AcDbEntity
  8
0
  6
Continuous
 62
     1
370
    25
100
AcDbLine
 10
193.9174183517
 20
591.5443685453
 30
0.0
 11
193.9174183517
 21
491.5443685453
 31
0.0
  0
INSERT
  5
B7
330
1F
100
AcDbEntity
  8
FORMAT
 62
     7
100
AcDbBlockReference
  2
SW_CENTERMARKSYMBOL_1
 10
93.9174183517
 20
491.5443685453
 30
0.0
  0
LINE
  5
B8
330
1F
100
AcDbEntity
  8
0
  6
Continuous
 62
     7
370
    25
100
AcDbLine
 10
477.8356228304
 20
83.7765008981
 30
0.0
 11
477.8356228304
 21
-61.2234991019
 31
0.0
  0
LINE
  5
B9
330
1F
100
AcDbEntity
  8
0
  6
Continuous
 62
     7
370
    25
100
AcDbLine
 10
677.8356228304
 20
-61.2234991019
 30
0.0
 11
677.8356228304
 21
83.7765008981
 31
0.0
  0
LINE
  5
BA
330
1F
100
AcDbEntity
  8
0
  6
Continuous
 62
     7
370
    25
100
AcDbLine
 10
677.8356228304
 20
83.7765008981
 30
0.0
 11
677.8356228304
 21
183.7765008981
 31
0.0
  0
LINE
  5
BB
330
1F
100
AcDbEntity
  8
0
  6
Continuous
 62
     7
370
    25
100
AcDbLine
 10
477.8356228304
 20
183.7765008981
 30
0.0
 11
477.8356228304
 21
83.7765008981
 31
0.0
  0
LINE
  5
BC
330
1F
100
AcDbEntity
  8
0
  6
Continuous
 62
     7
370
    25
100
AcDbLine
 10
477.8356228304
 20
-61.2234991019
 30
0.0
 11
677.8356228304
 21
-61.2234991019
 31
0.0
  0
ARC
  5
BD
330
1F
100
AcDbEntity
  8
0
  6
Continuous
 62
     7
370
    25
100
AcDbCircle
 10
577.8356228304
 20
183.7765008981
 30
0.0
 40
100.0
100
AcDbArc
 50
0.0
 51
180.0
  0
LINE
  5
BE
330
1F
100
AcDbEntity
  8
0
  6
Continuous
 62
     1
370
    25
100
AcDbLine
 10
477.8356228304
 20
83.7765008981
 30
0.0
 11
677.8356228304
 21
83.7765008981
 31
0.0
  0
INSERT
  5
CA
330
1F
100
AcDbEntity
  8
FORMAT
 62
     7
100
AcDbBlockReference
  2
SW_CENTERMARKSYMBOL_2
 10
577.8356228304
 20
183.7765008981
 30
0.0
  0
LINE
  5
CB
330
1F
100
AcDbEntity
  8
0
  6
Continuous
 62
     7
370
    25
100
AcDbLine
 10
93.9174183517
 20
-460.5124631751
 30
0.0
 11
193.9174183517
 21
-460.5124631751
 31
0.0
  0
LINE
  5
CC
330
1F
100
AcDbEntity
  8
0
  6
Continuous
 62
     7
370
    25
100
AcDbLine
 10
193.9174183517
 20
-260.5124631751
 30
0.0
 11
93.9174183517
 21
-260.5124631751
 31
0.0
  0
LINE
  5
CD
330
1F
100
AcDbEntity
  8
0
  6
Continuous
 62
     7
370
    25
100
AcDbLine
 10
338.9174183517
 20
-260.5124631751
 30
0.0
 11
193.9174183517
 21
-260.5124631751
 31
0.0
  0
LINE
  5
CE
330
1F
100
AcDbEntity
  8
0
  6
Continuous
 62
     7
370
    25
100
AcDbLine
 10
193.9174183517
 20
-460.5124631751
 30
0.0
 11
338.9174183517
 21
-460.5124631751
 31
0.0
  0
ARC
  5
CF
330
1F
100
AcDbEntity
  8
0
  6
Continuous
 62
     7
370
    25
100
AcDbCircle
 10
93.9174183517
 20
-360.5124631751
 30
0.0
 40
100.0000000000001
100
AcDbArc
 50
90.0
 51
270.0
  0
LINE
  5
D0
330
1F
100
AcDbEntity
  8
0
  6
Continuous
 62
     7
370
    25
100
AcDbLine
 10
338.9174183517
 20
-260.5124631751
 30
0.0
 11
338.9174183517
 21
-460.5124631751
 31
0.0
  0
LINE
  5
D1
330
1F
100
AcDbEntity
  8
0
  6
Continuous
 62
     1
370
    25
100
AcDbLine
 10
193.9174183517
 20
-260.5124631751
 30
0.0
 11
193.9174183517
 21
-460.5124631751
 31
0.0
  0
INSERT
  5
DD
330
1F
100
AcDbEntity
  8
FORMAT
 62
     7
100
AcDbBlockReference
  2
SW_CENTERMARKSYMBOL_3
 10
93.9174183517
 20
-360.5124631751
 30
0.0
  0
LINE
  5
DE
330
1F
100
AcDbEntity
  8
0
  6
Continuous
 62
     7
370
    25
100
AcDbLine
 10
651.5211454608
 20
-149.405758594
 30
0.0
 11
548.9906621887
 21
-208.5953467011
 31
0.0
  0
LINE
  5
DF
330
1F
100
AcDbEntity
  8
0
  6
Continuous
 62
     7
370
    25
100
AcDbLine
 10
648.9825354524
 20
-381.8051191773
 30
0.0
 11
751.5130187244
 21
-322.6155310701
 31
0.0
  0
LINE
  5
E0
330
1F
100
AcDbEntity
  8
0
  6
Continuous
 62
     7
370
    25
100
AcDbLine
 10
428.2759207019
 20
-417.6747197189
 30
0.0
 11
428.2759207019
 21
-536.0731374423
 31
0.0
  0
LINE
  5
E1
330
1F
100
AcDbEntity
  8
0
  6
Continuous
 62
     7
370
    25
100
AcDbLine
 10
628.2759207019
 20
-536.0731374423
 30
0.0
 11
628.2759207019
 21
-417.6747197189
 31
0.0
  0
SPLINE
  5
E2
330
1F
100
AcDbEntity
  8
0
  6
Continuous
 62
     7
370
    25
100
AcDbSpline
210
0.0
220
0.0
230
1.0
 70
     8
 71
     3
 72
    39
 73
    35
 74
     0
 42
0.00000001
 43
0.00000001
 40
0.0
 40
0.0
 40
0.0
 40
0.0
 40
0.0203263980014207
 40
0.051575829789802
 40
0.0828998758290664
 40
0.1143719857550424
 40
0.1459385056579435
 40
0.1775451390829102
 40
0.2091439541143849
 40
0.2407050992190751
 40
0.2722080886549024
 40
0.3036413619370717
 40
0.3350012670298749
 40
0.3662908050705531
 40
0.397518346923789
 40
0.4286964474552005
 40
0.4598408137135776
 40
0.4909694346594429
 40
0.5221018502784338
 40
0.5532570866535059
 40
0.5844505259675004
 40
0.6157029362594495
 40
0.6470344366124573
 40
0.6784638094251971
 40
0.7100076753138355
 40
0.7416794824316132
 40
0.7734882779219259
 40
0.8054372603188474
 40
0.8375221667344377
 40
0.8697296332149942
 40
0.9020357770989106
 40
0.9344038609251206
 40
0.966771297234523
 40
1.0
 40
1.0
 40
1.0
 40
1.0
 10
548.9906621887467
 20
-208.5953467011357
 30
0.0
 10
547.5670196414671
 20
-209.4316432584519
 30
0.0
 10
543.9546951314934
 20
-211.5536468171211
 30
0.0
 10
538.2616595786693
 20
-215.20048365883
 30
0.0
 10
531.9285031983973
 20
-219.5786929318116
 30
0.0
 10
525.7126472746139
 20
-224.2252997377093
 30
0.0
 10
519.6188632644275
 20
-229.1267729709568
 30
0.0
 10
513.662567458558
 20
-234.2690852209466
 30
0.0
 10
507.8563000823242
 20
-239.6361380062702
 30
0.0
 10
502.2103788316944
 20
-245.2130184328714
 30
0.0
 10
496.7327171050264
 20
-250.9859511354351
 30
0.0
 10
491.4297097657286
 20
-256.9422077814953
 30
0.0
 10
486.3065238681576
 20
-263.0701593374574
 30
0.0
 10
481.36743356154
 20
-269.3592798564718
 30
0.0
 10
476.6161264768862
 20
-275.8000697492118
 30
0.0
 10
472.0559712632125
 20
-282.3839485687262
 30
0.0
 10
467.6902385179757
 20
-289.1031336746898
 30
0.0
 10
463.5222788565512
 20
-295.9505185371178
 30
0.0
 10
459.555726256061
 20
-302.9194481502555
 30
0.0
 10
455.7947563829283
 20
-310.003293414443
 30
0.0
 10
452.2439003176887
 20
-317.1957372766298
 30
0.0
 10
448.9080712193651
 20
-324.490790954382
 30
0.0
 10
445.7925335007242
 20
-331.8830023470215
 30
0.0
 10
442.9031924523924
 20
-339.3668800109487
 30
0.0
 10
440.2466531572397
 20
-346.9366896852725
 30
0.0
 10
437.8302678860794
 20
-354.5862000712769
 30
0.0
 10
435.6621329943166
 20
-362.3083724871987
 30
0.0
 10
433.7511202826135
 20
-370.0949856173839
 30
0.0
 10
432.1065359785609
 20
-377.9362431780863
 30
0.0
 10
430.7388269781372
 20
-385.8202725576085
 30
0.0
 10
429.655912022631
 20
-393.7329282686258
 30
0.0
 10
428.8755048842945
 20
-401.6552498640743
 30
0.0
 10
428.3721891976403
 20
-409.6438021458193
 30
0.0
 10
428.3082898630416
 20
-414.9744171633939
 30
0.0
 10
428.2759207018952
 20
-417.6747197189143
 30
0.0
  0
SPLINE
  5
E3
330
1F
100
AcDbEntity
  8
0
  6
Continuous
 62
     7
370
    25
100
AcDbSpline
210
0.0
220
0.0
230
1.0
 70
     8
 71
     3
 72
    32
 73
    28
 74
     0
 42
0.00000001
 43
0.00000001
 40
0.0
 40
0.0
 40
0.0
 40
0.0
 40
0.0421739410726649
 40
0.0830101478318605
 40
0.1228574111108605
 40
0.1620314770142096
 40
0.2008089374363301
 40
0.2394222782190467
 40
0.2780563051034631
 40
0.3168350923495478
 40
0.3558237688490694
 40
0.3950775280852526
 40
0.4346090882630072
 40
0.4743956801750892
 40
0.514387512172584
 40
0.5545175626466544
 40
0.5946993353100534
 40
0.6348524825347636
 40
0.6749294946584683
 40
0.714913636596353
 40
0.7548286468520216
 40
0.7947467344189447
 40
0.8347942257399675
 40
0.8751038692368228
 40
0.9158865405343991
 40
0.9574126967537621
 40
1.0
 40
1.0
 40
1.0
 40
1.0
 10
628.275381207264
 20
-417.7590375395492
 30
0.0
 10
628.2783881211546
 20
-417.7014145964682
 30
0.0
 10
628.2843065712741
 20
-417.5879964785022
 30
0.0
 10
628.3384900164988
 20
-417.049009896558
 30
0.0
 10
628.4525922296141
 20
-416.2574339060087
 30
0.0
 10
628.6461940125084
 20
-415.2041781496612
 30
0.0
 10
628.9347449057514
 20
-413.9132440171517
 30
0.0
 10
629.3317369056384
 20
-412.4025330318202
 30
0.0
 10
629.8477407773659
 20
-410.6949911971078
 30
0.0
 10
630.4900013528319
 20
-408.8166112564641
 30
0.0
 10
631.2620056957312
 20
-406.7968473084146
 30
0.0
 10
632.1632173158208
 20
-404.6679369636175
 30
0.0
 10
633.1889443545675
 20
-402.4642647987836
 30
0.0
 10
634.3298817755186
 20
-400.2223552627751
 30
0.0
 10
635.5720458719101
 20
-397.9800011047964
 30
0.0
 10
636.896783190459
 20
-395.7754172120423
 30
0.0
 10
638.2811291226135
 20
-393.6459654825385
 30
0.0
 10
639.6986178621429
 20
-391.6265302429359
 30
0.0
 10
641.1203305372278
 20
-389.7480682553795
 30
0.0
 10
642.5158618072658
 20
-388.0366863330202
 30
0.0
 10
643.8540234269101
 20
-386.5132497942095
 30
0.0
 10
645.1038243028762
 20
-385.1929111573365
 30
0.0
 10
646.2339799691298
 20
-384.086026526032
 30
0.0
 10
647.2162316939264
 20
-383.1959592799604
 30
0.0
 10
648.0167466866351
 20
-382.5259819233728
 30
0.0
 10
648.6312217530075
 20
-382.0539279106144
 30
0.0
 10
648.8406782806275
 20
-381.9083977517324
 30
0.0
 10
648.9467277608809
 20
-381.8347146925981
 30
0.0
  0
LWPOLYLINE
  5
E4
330
1F
100
AcDbEntity
  8
0
  6
Continuous
 62
     7
370
    25
100
AcDbPolyline
 90
      107
 70
   128
 43
0.0
 10
630.8064039739
 20
-195.1902392409
 10
630.9305908918
 20
-200.0991698623
 10
631.3027154345
 20
-205.1342408493
 10
631.9214705008
 20
-210.2777663314
 10
632.7846826911
 20
-215.5116794877
 10
633.8893199411
 20
-220.8175960074
 10
635.231502172
 20
-226.1768786652
 10
636.80651492
 20
-231.5707027853
 10
638.6088258953
 20
-236.9801223638
 10
640.6321044148
 20
-242.3861366172
 10
642.8692436389
 20
-247.7697567231
 10
645.3123855346
 20
-253.1120725196
 10
647.9529484768
 20
-258.3943189276
 10
650.7816573919
 20
-263.597941864
 10
653.7885763367
 20
-268.7046634135
 10
656.9631433986
 20
-273.6965460303
 10
660.2942077952
 20
-278.5560555446
 10
663.7700690411
 20
-283.2661227522
 10
667.3785180471
 20
-287.8102033701
 10
671.1068800044
 20
-292.1723361494
 10
674.9420589056
 20
-296.3371989397
 10
678.870583545
 20
-300.2901625084
 10
682.8786548365
 20
-304.017341927
 10
686.9521942835
 20
-307.5056453418
 10
691.0768934301
 20
-310.7428199597
 10
695.2382641202
 20
-313.7174950869
 10
699.4216893874
 20
-316.4192220685
 10
703.6124747978
 20
-318.83851099
 10
707.795900065
 20
-320.9668640107
 10
711.9572707551
 20
-322.7968052131
 10
716.0819699017
 20
-324.321906862
 10
720.1555093487
 20
-325.5368119821
 10
724.1635806402
 20
-326.437253175
 10
728.0921052796
 20
-327.0200676081
 10
731.9272841808
 20
-327.2832081245
 10
735.6556461381
 20
-327.2257504335
 10
739.2640951441
 20
-326.8478963573
 10
742.73995639
 20
-326.1509731221
 10
746.0710207866
 20
-325.1374286964
 10
749.2455878485
 20
-323.8108231917
 10
752.2525067933
 20
-322.1758163583
 10
755.0812157084
 20
-320.2381512174
 10
757.7217786506
 20
-318.0046338884
 10
760.1649205463
 20
-315.4831096824
 10
762.4020597704
 20
-312.6824355452
 10
764.4253382899
 20
-309.6124489467
 10
766.2276492652
 20
-306.283933327
 10
767.8026620132
 20
-302.7085802184
 10
769.1448442441
 20
-298.8989481793
 10
770.2494814941
 20
-294.868418681
 10
771.1126936844
 20
-290.6311491054
 10
771.7314487507
 20
-286.2020230165
 10
772.1035732934
 20
-281.5965978812
 10
772.2277602113
 20
-276.8310504232
 10
772.1035732934
 20
-271.9221198018
 10
771.7314487507
 20
-266.8870488148
 10
771.1126936844
 20
-261.7435233327
 10
770.2494814941
 20
-256.5096101764
 10
769.1448442441
 20
-251.2036936567
 10
767.8026620132
 20
-245.8444109989
 10
766.2276492652
 20
-240.4505868788
 10
764.4253382899
 20
-235.0411673003
 10
762.4020597704
 20
-229.635153047
 10
760.1649205463
 20
-224.2515329411
 10
757.7217786506
 20
-218.9092171446
 10
755.0812157084
 20
-213.6269707365
 10
752.2525067933
 20
-208.4233478001
 10
749.2455878485
 20
-203.3166262506
 10
746.0710207866
 20
-198.3247436339
 10
742.73995639
 20
-193.4652341195
 10
739.2640951441
 20
-188.7551669119
 10
735.6556461381
 20
-184.211086294
 10
731.9272841808
 20
-179.8489535147
 10
728.0921052796
 20
-175.6840907244
 10
724.1635806402
 20
-171.7311271557
 10
720.1555093487
 20
-168.0039477371
 10
716.0819699017
 20
-164.5156443223
 10
711.9572707551
 20
-161.2784697044
 10
707.795900065
 20
-158.3037945772
 10
703.6124747978
 20
-155.6020675956
 10
699.4216893874
 20
-153.1827786741
 10
695.2382641202
 20
-151.0544256534
 10
691.0768934301
 20
-149.224484451
 10
686.9521942835
 20
-147.6993828021
 10
682.8786548365
 20
-146.484477682
 10
678.870583545
 20
-145.5840364891
 10
674.9420589056
 20
-145.001222056
 10
671.1068800044
 20
-144.7380815396
 10
667.3785180471
 20
-144.7955392306
 10
663.7700690411
 20
-145.1733933068
 10
660.2942077952
 20
-145.870316542
 10
656.9631433986
 20
-146.8838609678
 10
653.7885763367
 20
-148.2104664725
 10
650.7816573919
 20
-149.8454733058
 10
647.9529484768
 20
-151.7831384467
 10
645.3123855346
 20
-154.0166557757
 10
642.8692436389
 20
-156.5381799817
 10
640.6321044148
 20
-159.338854119
 10
638.6088258953
 20
-162.4088407174
 10
636.80651492
 20
-165.7373563372
 10
635.231502172
 20
-169.3127094457
 10
633.8893199411
 20
-173.1223414849
 10
632.7846826911
 20
-177.1528709832
 10
631.9214705008
 20
-181.3901405587
 10
631.3027154345
 20
-185.8192666476
 10
630.9305908918
 20
-190.4246917829
 10
630.8064039739
 20
-195.1902392409
  0
LWPOLYLINE
  5
E5
330
1F
100
AcDbEntity
  8
0
  6
Continuous
 62
     7
370
    25
100
AcDbPolyline
 90
       97
 70
   128
 43
0.0
 10
643.6757473915
 20
-202.6195530585
 10
643.7995901291
 20
-198.3225722262
 10
644.1705880282
 20
-194.1869775068
 10
644.7871524189
 20
-190.2304781517
 10
645.6466430778
 20
-186.4700164986
 10
646.745379534
 20
-182.9216954217
 10
648.0786568292
 20
-179.6007093766
 10
649.6407656653
 20
-176.5212793352
 10
651.4250168527
 20
-173.6965918899
 10
653.4237699536
 20
-171.138742786
 10
655.6284660006
 20
-168.8586851259
 10
658.0296641466
 20
-166.8661824666
 10
660.6170820926
 20
-165.1697670104
 10
663.3796401177
 20
-163.7767030687
 10
666.3055085242
 20
-162.6929559553
 10
669.3821582946
 20
-161.9231664415
 10
672.5964147421
 20
-161.4706308843
 10
675.9345139271
 20
-161.3372871105
 10
679.3821615966
 20
-161.5237061184
 10
682.9245943939
 20
-162.0290896334
 10
686.5466430778
 20
-162.8512735256
 10
690.2327974799
 20
-163.9867370773
 10
693.9672729211
 20
-165.4306180594
 10
697.7340778043
 20
-167.1767335518
 10
701.5170820926
 20
-169.2176064198
 10
705.3000863809
 20
-171.5444973326
 10
709.0668912641
 20
-174.147442186
 10
712.8013667053
 20
-177.0152947705
 10
716.4875211074
 20
-180.1357745011
 10
720.1095697913
 20
-183.4955190045
 10
723.6520025886
 20
-187.0801413391
 10
727.099650258
 20
-190.8742916015
 10
730.4377494431
 20
-194.8617226579
 10
733.6520058906
 20
-199.0253597163
 10
736.728655661
 20
-203.3473734437
 10
739.6545240675
 20
-207.8092563138
 10
742.4170820926
 20
-212.391901859
 10
745.0045000386
 20
-217.0756864877
 10
747.4056981846
 20
-221.8405535149
 10
749.6103942316
 20
-226.6660990486
 10
751.6091473325
 20
-231.5316593619
 10
753.3933985198
 20
-236.4163993787
 10
754.955507356
 20
-241.2994018922
 10
756.2887846512
 20
-246.159757136
 10
757.3875211074
 20
-250.9766523228
 10
758.2470117663
 20
-255.7294607679
 10
758.863576157
 20
-260.3978302158
 10
759.2345740561
 20
-264.961769992
 10
759.3584167937
 20
-269.4017366056
 10
759.2345740561
 20
-273.6987174379
 10
758.863576157
 20
-277.8343121574
 10
758.2470117663
 20
-281.7908115124
 10
757.3875211074
 20
-285.5512731655
 10
756.2887846512
 20
-289.0995942424
 10
754.955507356
 20
-292.4205802875
 10
753.3933985198
 20
-295.5000103289
 10
751.6091473325
 20
-298.3246977742
 10
749.6103942316
 20
-300.8825468782
 10
747.4056981846
 20
-303.1626045383
 10
745.0045000386
 20
-305.1551071975
 10
742.4170820926
 20
-306.8515226537
 10
739.6545240675
 20
-308.2445865954
 10
736.728655661
 20
-309.3283337088
 10
733.6520058906
 20
-310.0981232226
 10
730.4377494431
 20
-310.5506587798
 10
727.099650258
 20
-310.6840025537
 10
723.6520025886
 20
-310.4975835457
 10
720.1095697913
 20
-309.9922000307
 10
716.4875211074
 20
-309.1700161385
 10
712.8013667053
 20
-308.0345525868
 10
709.0668912641
 20
-306.5906716047
 10
705.3000863809
 20
-304.8445561123
 10
701.5170820926
 20
-302.8036832443
 10
697.7340778043
 20
-300.4767923315
 10
693.9672729211
 20
-297.8738474782
 10
690.2327974799
 20
-295.0059948936
 10
686.5466430778
 20
-291.885515163
 10
682.9245943939
 20
-288.5257706596
 10
679.3821615966
 20
-284.9411483251
 10
675.9345139271
 20
-281.1469980626
 10
672.5964147421
 20
-277.1595670062
 10
669.3821582946
 20
-272.9959299478
 10
666.3055085242
 20
-268.6739162204
 10
663.3796401177
 20
-264.2120333503
 10
660.6170820926
 20
-259.6293878051
 10
658.0296641466
 20
-254.9456031765
 10
655.6284660006
 20
-250.1807361492
 10
653.4237699536
 20
-245.3551906155
 10
651.4250168527
 20
-240.4896303022
 10
649.6407656653
 20
-235.6048902854
 10
648.0786568292
 20
-230.721887772
 10
646.745379534
 20
-225.8615325282
 10
645.6466430778
 20
-221.0446373414
 10
644.7871524189
 20
-216.2918288962
 10
644.1705880282
 20
-211.6234594483
 10
643.7995901291
 20
-207.0595196721
 10
643.6757473915
 20
-202.6195530585
  0
LINE
  5
E6
330
1F
100
AcDbEntity
  8
0
  6
Continuous
 62
     7
370
    25
100
AcDbLine
 10
598.1320662851
 20
-376.3550401857
 30
0.0
 11
598.9865988205
 21
-376.8543141278
 31
0.0
  0
LWPOLYLINE
  5
E7
330
1F
100
AcDbEntity
  8
0
  6
Continuous
 62
     7
370
    25
100
AcDbPolyline
 90
      107
 70
   128
 43
0.0
 10
457.5652425832
 20
-495.2527318512
 10
461.8783744717
 20
-492.9061969748
 10
466.4247301629
 20
-490.7112875512
 10
471.1883404166
 20
-488.6757132797
 10
476.1524728782
 20
-486.8066241892
 10
481.2996908512
 20
-485.1105855234
 10
486.6119145449
 20
-483.5935546798
 10
492.0704845798
 20
-482.2608602847
 10
497.6562275295
 20
-481.1171834757
 10
503.3495232682
 20
-480.1665414594
 10
509.130373887
 20
-479.4122734004
 10
514.9784739373
 20
-478.8570286929
 10
520.8732817543
 20
-478.5027576541
 10
526.7940916105
 20
-478.3507046739
 10
532.7201064455
 20
-478.4014038441
 10
538.630510916
 20
-478.654677082
 10
544.5045445107
 20
-479.1096347559
 10
550.3215744725
 20
-479.7646788106
 10
556.0611682713
 20
-480.6175083799
 10
561.7031653746
 20
-481.6651278688
 10
567.2277480619
 20
-482.9038574757
 10
572.615511035
 20
-484.3293461176
 10
577.8475295799
 20
-485.9365867137
 10
582.9054260407
 20
-487.7199337727
 10
587.7714343715
 20
-489.6731232232
 10
592.4284625408
 20
-491.7892944159
 10
596.860152567
 20
-494.0610142223
 10
601.0509379775
 20
-496.4803031438
 10
604.9860984856
 20
-499.0386633397
 10
608.6518116966
 20
-501.7271084766
 10
612.0352016589
 20
-504.536195293
 10
615.1243840921
 20
-507.4560567688
 10
617.9085081302
 20
-510.4764367841
 10
620.3777944359
 20
-513.5867261441
 10
622.523569551
 20
-516.7759998439
 10
624.3382963622
 20
-520.0330554433
 10
625.8156005754
 20
-523.3464524157
 10
626.9502931056
 20
-526.7045523334
 10
627.738388304
 20
-530.0955597481
 10
628.1771179574
 20
-533.5075636223
 10
628.2649410118
 20
-536.9285791682
 10
628.0015489858
 20
-540.3465899438
 10
627.3878670532
 20
-543.7495900617
 10
626.4260507943
 20
-547.1256263597
 10
625.1194786238
 20
-550.4628403874
 10
623.4727399241
 20
-553.7495100586
 10
621.4916189249
 20
-556.9740908263
 10
619.183074386
 20
-560.125256233
 10
616.5552151543
 20
-563.1919376952
 10
613.6172716812
 20
-566.1633633825
 10
610.3795636002
 20
-569.0290960537
 10
606.8534634791
 20
-571.7790697184
 10
603.0513568732
 20
-574.4036249937
 10
598.9865988205
 20
-576.8935430335
 10
594.6734669321
 20
-579.2400779099
 10
590.1271112409
 20
-581.4349873335
 10
585.3635009872
 20
-583.470561605
 10
580.3993685256
 20
-585.3396506955
 10
575.2521505526
 20
-587.0356893613
 10
569.9399268589
 20
-588.5527202049
 10
564.481356824
 20
-589.8854146
 10
558.8956138743
 20
-591.029091409
 10
553.2023181356
 20
-591.9797334253
 10
547.4214675168
 20
-592.7340014843
 10
541.5733674665
 20
-593.2892461918
 10
535.6785596495
 20
-593.6435172306
 10
529.7577497933
 20
-593.7955702108
 10
523.8317349583
 20
-593.7448710406
 10
517.9213304878
 20
-593.4915978027
 10
512.047296893
 20
-593.0366401288
 10
506.2302669313
 20
-592.3815960741
 10
500.4906731325
 20
-591.5287665048
 10
494.8486760292
 20
-590.4811470159
 10
489.3240933419
 20
-589.242417409
 10
483.9363303688
 20
-587.8169287671
 10
478.7043118239
 20
-586.209688171
 10
473.6464153631
 20
-584.426341112
 10
468.7804070322
 20
-582.4731516615
 10
464.123378863
 20
-580.3569804688
 10
459.6916888368
 20
-578.0852606624
 10
455.5009034263
 20
-575.6659717409
 10
451.5657429182
 20
-573.107611545
 10
447.9000297072
 20
-570.4191664081
 10
444.5166397449
 20
-567.6100795917
 10
441.4274573117
 20
-564.6902181159
 10
438.6433332736
 20
-561.6698381006
 10
436.1740469679
 20
-558.5595487406
 10
434.0282718528
 20
-555.3702750408
 10
432.2135450416
 20
-552.1132194414
 10
430.7362408284
 20
-548.799822469
 10
429.6015482982
 20
-545.4417225513
 10
428.8134530998
 20
-542.0507151366
 10
428.3747234464
 20
-538.6387112624
 10
428.2869003919
 20
-535.2176957165
 10
428.550292418
 20
-531.7996849409
 10
429.1639743506
 20
-528.396684823
 10
430.1257906095
 20
-525.020648525
 10
431.43236278
 20
-521.6834344973
 10
433.0791014797
 20
-518.3967648261
 10
435.0602224789
 20
-515.1721840584
 10
437.3687670178
 20
-512.0210186517
 10
439.9966262495
 20
-508.9543371895
 10
442.9345697226
 20
-505.9829115022
 10
446.1722778036
 20
-503.117178831
 10
449.6983779247
 20
-500.3672051663
 10
453.5004845306
 20
-497.742649891
 10
457.5652425832
 20
-495.2527318512
  0
LWPOLYLINE
  5
E8
330
1F
100
AcDbEntity
  8
0
  6
Continuous
 62
     7
370
    25
100
AcDbPolyline
 90
       97
 70
   128
 43
0.0
 10
470.4345860008
 20
-502.6820456688
 10
466.7754244501
 20
-504.9374204498
 10
463.3796174661
 20
-507.3261231511
 10
460.2617064155
 20
-509.8379249808
 10
457.4350426723
 20
-512.462070018
 10
454.9117304445
 20
-515.1873212708
 10
452.7025749425
 20
-518.0020087949
 10
450.8170361092
 20
-520.8940796661
 10
449.2631881114
 20
-523.8511495931
 10
448.0476847649
 20
-526.8605559484
 10
447.1757310415
 20
-529.9094119921
 10
446.651060781
 20
-532.9846620543
 10
446.4759207019
 20
-536.0731374423
 10
446.651060781
 20
-539.1616128304
 10
447.1757310415
 20
-542.2368628926
 10
448.0476847649
 20
-545.2857189363
 10
449.2631881114
 20
-548.2951252916
 10
450.8170361092
 20
-551.2521952186
 10
452.7025749425
 20
-554.1442660898
 10
454.9117304445
 20
-556.9589536139
 10
457.4350426723
 20
-559.6842048666
 10
460.2617064155
 20
-562.3083499039
 10
463.3796174661
 20
-564.8201517336
 10
466.7754244501
 20
-567.2088544349
 10
470.4345860008
 20
-569.4642292159
 10
474.3414330267
 20
-571.5766182157
 10
478.479235809
 20
-573.5369758602
 10
482.8302756409
 20
-575.336907597
 10
487.3759207019
 20
-576.9687058422
 10
492.096705842
 20
-578.425382985
 10
496.9724159344
 20
-579.7007013105
 10
501.9821724401
 20
-580.7891997096
 10
507.1045228125
 20
-581.6862170651
 10
512.317532361
 20
-582.3879122111
 10
517.5988781783
 20
-582.8912803811
 10
522.9259447309
 20
-583.1941660754
 10
528.2759207019
 20
-583.2952722909
 10
533.6258966729
 20
-583.1941660754
 10
538.9529632255
 20
-582.8912803811
 10
544.2343090428
 20
-582.3879122111
 10
549.4473185913
 20
-581.6862170651
 10
554.5696689637
 20
-580.7891997096
 10
559.5794254694
 20
-579.7007013105
 10
564.4551355618
 20
-578.425382985
 10
569.1759207019
 20
-576.9687058422
 10
573.7215657629
 20
-575.336907597
 10
578.0726055948
 20
-573.5369758602
 10
582.2104083771
 20
-571.5766182157
 10
586.117255403
 20
-569.4642292159
 10
589.7764169537
 20
-567.2088544349
 10
593.1722239377
 20
-564.8201517336
 10
596.2901349882
 20
-562.3083499039
 10
599.1167987315
 20
-559.6842048666
 10
601.6401109593
 20
-556.9589536139
 10
603.8492664613
 20
-554.1442660898
 10
605.7348052946
 20
-551.2521952186
 10
607.2886532923
 20
-548.2951252916
 10
608.5041566389
 20
-545.2857189362
 10
609.3761103623
 20
-542.2368628926
 10
609.9007806228
 20
-539.1616128304
 10
610.0759207019
 20
-536.0731374423
 10
609.9007806228
 20
-532.9846620543
 10
609.3761103623
 20
-529.9094119921
 10
608.5041566389
 20
-526.8605559484
 10
607.2886532923
 20
-523.8511495931
 10
605.7348052946
 20
-520.8940796661
 10
603.8492664613
 20
-518.0020087949
 10
601.6401109593
 20
-515.1873212708
 10
599.1167987315
 20
-512.462070018
 10
596.2901349882
 20
-509.8379249808
 10
593.1722239377
 20
-507.3261231511
 10
589.7764169537
 20
-504.9374204498
 10
586.117255403
 20
-502.6820456688
 10
582.2104083771
 20
-500.569656669
 10
578.0726055948
 20
-498.6092990245
 10
573.7215657629
 20
-496.8093672877
 10
569.1759207019
 20
-495.1775690425
 10
564.4551355618
 20
-493.7208918997
 10
559.5794254694
 20
-492.4455735742
 10
554.5696689637
 20
-491.3570751751
 10
549.4473185913
 20
-490.4600578196
 10
544.2343090428
 20
-489.7583626736
 10
538.9529632255
 20
-489.2549945036
 10
533.6258966729
 20
-488.9521088093
 10
528.2759207019
 20
-488.8510025938
 10
522.9259447309
 20
-488.9521088093
 10
517.5988781783
 20
-489.2549945036
 10
512.317532361
 20
-489.7583626736
 10
507.1045228125
 20
-490.4600578196
 10
501.9821724401
 20
-491.3570751751
 10
496.9724159344
 20
-492.4455735742
 10
492.096705842
 20
-493.7208918997
 10
487.3759207019
 20
-495.1775690425
 10
482.8302756409
 20
-496.8093672877
 10
478.479235809
 20
-498.6092990245
 10
474.3414330267
 20
-500.569656669
 10
470.4345860008
 20
-502.6820456688
  0
LWPOLYLINE
  5
E9
330
1F
100
AcDbEntity
  8
0
  6
Continuous
 62
     1
370
    25
100
AcDbPolyline
 90
       15
 70
   128
 43
0.0
 10
598.9865988205
 20
-376.8543141278
 10
603.1755437911
 20
-379.1291341168
 10
607.3497749396
 20
-381.1091507794
 10
611.4946301271
 20
-382.7874092348
 10
615.5955503983
 20
-384.1580145392
 10
619.6381311214
 20
-385.2161523912
 10
623.6081725841
 20
-385.9581060431
 10
627.491729871
 20
-386.3812693558
 10
631.2751618455
 20
-386.4841559525
 10
634.9451790647
 20
-386.2664044403
 10
638.4888904593
 20
-385.7287796795
 10
641.8938486139
 20
-384.8731700965
 10
645.1480934887
 20
-383.7025810513
 10
648.2401944298
 20
-382.2211242806
 10
648.9825354524
 20
-381.8051191773
  0
LWPOLYLINE
  5
EA
330
1F
100
AcDbEntity
  8
0
  6
Continuous
 62
     1
370
    25
100
AcDbPolyline
 90
       41
 70
   128
 43
0.0
 10
548.9906621887
 20
-208.5953467011
 10
546.813907321
 20
-209.9664624232
 10
544.0780699124
 20
-212.0529699761
 10
541.5351007143
 20
-214.4315353227
 10
539.1939319985
 20
-217.0938036653
 10
537.0627872057
 20
-220.0304236895
 10
535.1491520596
 20
-223.2310804101
 10
533.4597482735
 20
-226.6845314039
 10
532.0005099398
 20
-230.3786462981
 10
530.7765626864
 20
-234.3004493796
 10
529.7922056726
 20
-238.4361651719
 10
529.0508964884
 20
-242.7712668225
 10
528.5552390092
 20
-247.2905271288
 10
528.3069742502
 20
-251.978072024
 10
528.3069742502
 20
-256.8174363358
 10
528.5552390092
 20
-261.7916216206
 10
529.0508964884
 20
-266.8831558711
 10
529.7922056726
 20
-272.0741548875
 10
530.7765626864
 20
-277.3463850965
 10
532.0005099398
 20
-282.6813275973
 10
533.4597482735
 20
-288.0602432096
 10
535.1491520596
 20
-293.4642382963
 10
537.0627872057
 20
-298.8743311274
 10
539.1939319985
 20
-304.2715185547
 10
541.5351007143
 20
-309.6368427604
 10
544.0780699124
 20
-314.9514578476
 10
546.813907321
 20
-320.196696037
 10
549.7330032113
 20
-325.354133238
 10
552.8251041524
 20
-330.4056537645
 10
556.0793490272
 20
-335.3335139664
 10
559.4843071818
 20
-340.1204045549
 10
563.0280185764
 20
-344.7495114024
 10
566.6980357956
 20
-349.2045746021
 10
570.4814677701
 20
-353.4699455821
 10
574.365025057
 20
-357.5306420713
 10
578.3350665197
 20
-361.3724007251
 10
582.3776472428
 20
-364.9817272262
 10
586.478567514
 20
-368.3459436836
 10
590.6234227015
 20
-371.4532331643
 10
594.79765385
 20
-374.2926812006
 10
598.1320662851
 20
-376.3550401857
  0
LWPOLYLINE
  5
EB
330
1F
100
AcDbEntity
  8
0
  6
Continuous
 62
     1
370
    25
100
AcDbPolyline
 90
       15
 70
   128
 43
0.0
 10
598.9865988205
 20
-376.8543141278
 10
603.0513568732
 20
-379.3442321676
 10
606.8534634791
 20
-381.9687874429
 10
610.3795636002
 20
-384.7187611075
 10
613.6172716812
 20
-387.5844937788
 10
616.5552151543
 20
-390.555919466
 10
619.183074386
 20
-393.6226009282
 10
621.4916189249
 20
-396.7737663349
 10
623.4727399241
 20
-399.9983471027
 10
625.1194786238
 20
-403.2850167739
 10
626.4260507943
 20
-406.6222308015
 10
627.3878670532
 20
-409.9982670996
 10
628.0015489858
 20
-413.4012672174
 10
628.2649410118
 20
-416.8192779931
 10
628.2759207019
 20
-417.6747197189
  0
LWPOLYLINE
  5
EC
330
1F
100
AcDbEntity
  8
0
  6
Continuous
 62
     1
370
    25
100
AcDbPolyline
 90
       41
 70
   128
 43
0.0
 10
428.2759207019
 20
-417.6747197189
 10
428.3747234464
 20
-415.1091458989
 10
428.8134530998
 20
-411.6971420246
 10
429.6015482982
 20
-408.30613461
 10
430.7362408284
 20
-404.9480346923
 10
432.2135450416
 20
-401.6346377199
 10
434.0282718528
 20
-398.3775821205
 10
436.1740469679
 20
-395.1883084207
 10
438.6433332736
 20
-392.0780190607
 10
441.4274573117
 20
-389.0576390453
 10
444.5166397449
 20
-386.1377775695
 10
447.9000297072
 20
-383.3286907532
 10
451.5657429182
 20
-380.6402456163
 10
455.5009034263
 20
-378.0818854203
 10
459.6916888368
 20
-375.6625964989
 10
464.123378863
 20
-373.3908766925
 10
468.7804070322
 20
-371.2747054998
 10
473.6464153631
 20
-369.3215160493
 10
478.7043118239
 20
-367.5381689902
 10
483.9363303688
 20
-365.9309283941
 10
489.3240933419
 20
-364.5054397522
 10
494.8486760292
 20
-363.2667101454
 10
500.4906731325
 20
-362.2190906565
 10
506.2302669313
 20
-361.3662610872
 10
512.0472968931
 20
-360.7112170325
 10
517.9213304878
 20
-360.2562593585
 10
523.8317349583
 20
-360.0029861207
 10
529.7577497933
 20
-359.9522869505
 10
535.6785596495
 20
-360.1043399306
 10
541.5733674665
 20
-360.4586109694
 10
547.4214675168
 20
-361.013855677
 10
553.2023181356
 20
-361.7681237359
 10
558.8956138743
 20
-362.7187657523
 10
564.481356824
 20
-363.8624425613
 10
569.9399268589
 20
-365.1951369564
 10
575.2521505526
 20
-366.7121677999
 10
580.3993685256
 20
-368.4082064658
 10
585.3635009872
 20
-370.2772955563
 10
590.1271112409
 20
-372.3128698278
 10
594.6734669321
 20
-374.5077792514
 10
598.9865988205
 20
-376.8543141278
  0
ENDSEC
  0
SECTION
  2
OBJECTS
  0
DICTIONARY
  5
C
330
0
100
AcDbDictionary
281
     1
  3
ACAD_GROUP
350
D
  3
ACAD_LAYOUT
350
1A
  3
ACAD_MLINESTYLE
350
17
  3
ACAD_PLOTSETTINGS
350
19
  3
ACAD_PLOTSTYLENAME
350
E
  3
ACAD_SCALELIST
350
47
  3
DWGPROPS
350
ED
  0
DICTIONARY
  5
D
102
{ACAD_REACTORS
330
C
102
}
330
C
100
AcDbDictionary
281
     1
  0
DICTIONARY
  5
1A
102
{ACAD_REACTORS
330
C
102
}
330
C
100
AcDbDictionary
281
     1
  3
Layout1
350
1E
  3
Layout2
350
26
  3
Model
350
22
  0
DICTIONARY
  5
17
102
{ACAD_REACTORS
330
C
102
}
330
C
100
AcDbDictionary
281
     1
  3
Standard
350
18
  0
DICTIONARY
  5
19
102
{ACAD_REACTORS
330
C
102
}
330
C
100
AcDbDictionary
281
     1
  0
ACDBDICTIONARYWDFLT
  5
E
102
{ACAD_REACTORS
330
C
102
}
330
C
100
AcDbDictionary
281
     1
  3
Normal
350
F
100
AcDbDictionaryWithDefault
340
F
  0
DICTIONARY
  5
47
102
{ACAD_REACTORS
330
C
102
}
330
C
100
AcDbDictionary
281
     1
  3
A0
350
48
  3
A1
350
49
  3
A2
350
4A
  3
A3
350
4B
  3
A4
350
4C
  3
A5
350
4D
  3
A6
350
4E
  3
A7
350
4F
  3
A8
350
50
  3
A9
350
51
  3
B0
350
52
  3
B1
350
53
  3
B2
350
54
  3
B3
350
55
  3
B4
350
56
  3
B5
350
57
  3
B6
350
58
  3
B7
350
59
  3
B8
350
5A
  3
B9
350
5B
  3
C0
350
5C
  3
C1
350
5D
  3
C2
350
5E
  3
C3
350
5F
  3
C4
350
60
  3
C5
350
61
  3
C6
350
62
  3
C7
350
63
  3
C8
350
64
  3
C9
350
65
  3
D0
350
66
  3
D1
350
67
  3
D2
350
68
  0
XRECORD
  5
ED
102
{ACAD_REACTORS
330
C
102
}
330
C
100
AcDbXrecord
280
     1
  1
DWGPROPS COOKIE
  2

  3

  4

  6

  7

  8
b.kav
  9

300
=
301
=
302
=
303
=
304
=
305
=
306
=
307
=
308
=
309
=
 40
0.0
 41
2459935.574399908
 42
2459935.574400092
  1

 90
        0
  0
LAYOUT
  5
1E
102
{ACAD_REACTORS
330
1A
102
}
330
1A
100
AcDbPlotSettings
  1

  2
none_device
  4

  6

 40
0.0
 41
0.0
 42
0.0
 43
0.0
 44
0.0
 45
0.0
 46
0.0
 47
0.0
 48
0.0
 49
0.0
140
0.0
141
0.0
142
1.0
143
1.0
 70
   688
 72
     1
 73
     0
 74
     5
  7

 75
    16
147
1.0
148
0.0
149
0.0
100
AcDbLayout
  1
Layout1
 70
     1
 71
     1
 10
0.0
 20
0.0
 11
420.0
 21
297.0
 12
0.0
 22
0.0
 32
0.0
 14
1.0000000000E+20
 24
1.0000000000E+20
 34
1.0000000000E+20
 15
-1.0000000000E+20
 25
-1.0000000000E+20
 35
-1.0000000000E+20
146
0.0
 13
0.0
 23
0.0
 33
0.0
 16
1.0
 26
0.0
 36
0.0
 17
0.0
 27
1.0
 37
0.0
 76
     0
330
1B
  0
LAYOUT
  5
26
102
{ACAD_REACTORS
330
1A
102
}
330
1A
100
AcDbPlotSettings
  1

  2
none_device
  4

  6

 40
0.0
 41
0.0
 42
0.0
 43
0.0
 44
0.0
 45
0.0
 46
0.0
 47
0.0
 48
0.0
 49
0.0
140
0.0
141
0.0
142
1.0
143
1.0
 70
   688
 72
     1
 73
     0
 74
     5
  7

 75
    16
147
1.0
148
0.0
149
0.0
100
AcDbLayout
  1
Layout2
 70
     1
 71
     2
 10
0.0
 20
0.0
 11
0.0
 21
0.0
 12
0.0
 22
0.0
 32
0.0
 14
0.0
 24
0.0
 34
0.0
 15
0.0
 25
0.0
 35
0.0
146
0.0
 13
0.0
 23
0.0
 33
0.0
 16
1.0
 26
0.0
 36
0.0
 17
0.0
 27
1.0
 37
0.0
 76
     0
330
23
  0
LAYOUT
  5
22
102
{ACAD_REACTORS
330
1A
102
}
330
1A
100
AcDbPlotSettings
  1

  2
none_device
  4
Letter_(8.50_x_11.00_Inches)
  6

 40
6.35
 41
6.35
 42
6.35000508
 43
6.35000508
 44
215.9
 45
279.4
 46
0.0
 47
0.0
 48
0.0
 49
0.0
140
0.0
141
0.0
142
1.0
143
1.0
 70
  1712
 72
     1
 73
     0
 74
     0
  7

 75
     0
147
1.0
148
0.0
149
0.0
100
AcDbLayout
  1
Model
 70
     1
 71
     0
 10
0.0
 20
0.0
 11
279.4
 21
215.9
 12
0.0
 22
0.0
 32
0.0
 14
0.0
 24
0.0
 34
0.0
 15
279.4
 25
215.9
 35
0.0
146
0.0
 13
0.0
 23
0.0
 33
0.0
 16
1.0
 26
0.0
 36
0.0
 17
0.0
 27
1.0
 37
0.0
 76
     0
330
1F
331
29
  0
MLINESTYLE
  5
18
102
{ACAD_REACTORS
330
17
102
}
330
17
100
AcDbMlineStyle
  2
Standard
 70
     0
  3

 62
   256
 51
90.0
 52
90.0
 71
     2
 49
0.5
 62
   256
  6
BYLAYER
 49
-0.5
 62
   256
  6
BYLAYER
  0
ACDBPLACEHOLDER
  5
F
102
{ACAD_REACTORS
330
E
102
}
330
E
  0
SCALE
  5
48
102
{ACAD_REACTORS
330
47
102
}
330
47
100
AcDbScale
 70
     0
300
1:1
140
1.0
141
1.0
290
     1
  0
SCALE
  5
49
102
{ACAD_REACTORS
330
47
102
}
330
47
100
AcDbScale
 70
     0
300
1:2
140
1.0
141
2.0
290
     0
  0
SCALE
  5
4A
102
{ACAD_REACTORS
330
47
102
}
330
47
100
AcDbScale
 70
     0
300
1:4
140
1.0
141
4.0
290
     0
  0
SCALE
  5
4B
102
{ACAD_REACTORS
330
47
102
}
330
47
100
AcDbScale
 70
     0
300
1:5
140
1.0
141
5.0
290
     0
  0
SCALE
  5
4C
102
{ACAD_REACTORS
330
47
102
}
330
47
100
AcDbScale
 70
     0
300
1:8
140
1.0
141
8.0
290
     0
  0
SCALE
  5
4D
102
{ACAD_REACTORS
330
47
102
}
330
47
100
AcDbScale
 70
     0
300
1:10
140
1.0
141
10.0
290
     0
  0
SCALE
  5
4E
102
{ACAD_REACTORS
330
47
102
}
330
47
100
AcDbScale
 70
     0
300
1:16
140
1.0
141
16.0
290
     0
  0
SCALE
  5
4F
102
{ACAD_REACTORS
330
47
102
}
330
47
100
AcDbScale
 70
     0
300
1:20
140
1.0
141
20.0
290
     0
  0
SCALE
  5
50
102
{ACAD_REACTORS
330
47
102
}
330
47
100
AcDbScale
 70
     0
300
1:30
140
1.0
141
30.0
290
     0
  0
SCALE
  5
51
102
{ACAD_REACTORS
330
47
102
}
330
47
100
AcDbScale
 70
     0
300
1:40
140
1.0
141
40.0
290
     0
  0
SCALE
  5
52
102
{ACAD_REACTORS
330
47
102
}
330
47
100
AcDbScale
 70
     0
300
1:50
140
1.0
141
50.0
290
     0
  0
SCALE
  5
53
102
{ACAD_REACTORS
330
47
102
}
330
47
100
AcDbScale
 70
     0
300
1:100
140
1.0
141
100.0
290
     0
  0
SCALE
  5
54
102
{ACAD_REACTORS
330
47
102
}
330
47
100
AcDbScale
 70
     0
300
2:1
140
2.0
141
1.0
290
     0
  0
SCALE
  5
55
102
{ACAD_REACTORS
330
47
102
}
330
47
100
AcDbScale
 70
     0
300
4:1
140
4.0
141
1.0
290
     0
  0
SCALE
  5
56
102
{ACAD_REACTORS
330
47
102
}
330
47
100
AcDbScale
 70
     0
300
8:1
140
8.0
141
1.0
290
     0
  0
SCALE
  5
57
102
{ACAD_REACTORS
330
47
102
}
330
47
100
AcDbScale
 70
     0
300
10:1
140
10.0
141
1.0
290
     0
  0
SCALE
  5
58
102
{ACAD_REACTORS
330
47
102
}
330
47
100
AcDbScale
 70
     0
300
100:1
140
100.0
141
1.0
290
     0
  0
SCALE
  5
59
102
{ACAD_REACTORS
330
47
102
}
330
47
100
AcDbScale
 70
     0
300
1/128" = 1'-0"
140
0.0078125
141
12.0
290
     0
  0
SCALE
  5
5A
102
{ACAD_REACTORS
330
47
102
}
330
47
100
AcDbScale
 70
     0
300
1/64" = 1'-0"
140
0.015625
141
12.0
290
     0
  0
SCALE
  5
5B
102
{ACAD_REACTORS
330
47
102
}
330
47
100
AcDbScale
 70
     0
300
1/32" = 1'-0"
140
0.03125
141
12.0
290
     0
  0
SCALE
  5
5C
102
{ACAD_REACTORS
330
47
102
}
330
47
100
AcDbScale
 70
     0
300
1/16" = 1'-0"
140
0.0625
141
12.0
290
     0
  0
SCALE
  5
5D
102
{ACAD_REACTORS
330
47
102
}
330
47
100
AcDbScale
 70
     0
300
3/32" = 1'-0"
140
0.09375
141
12.0
290
     0
  0
SCALE
  5
5E
102
{ACAD_REACTORS
330
47
102
}
330
47
100
AcDbScale
 70
     0
300
1/8" = 1'-0"
140
0.125
141
12.0
290
     0
  0
SCALE
  5
5F
102
{ACAD_REACTORS
330
47
102
}
330
47
100
AcDbScale
 70
     0
300
3/16" = 1'-0"
140
0.1875
141
12.0
290
     0
  0
SCALE
  5
60
102
{ACAD_REACTORS
330
47
102
}
330
47
100
AcDbScale
 70
     0
300
1/4" = 1'-0"
140
0.25
141
12.0
290
     0
  0
SCALE
  5
61
102
{ACAD_REACTORS
330
47
102
}
330
47
100
AcDbScale
 70
     0
300
3/8" = 1'-0"
140
0.375
141
12.0
290
     0
  0
SCALE
  5
62
102
{ACAD_REACTORS
330
47
102
}
330
47
100
AcDbScale
 70
     0
300
1/2" = 1'-0"
140
0.5
141
12.0
290
     0
  0
SCALE
  5
63
102
{ACAD_REACTORS
330
47
102
}
330
47
100
AcDbScale
 70
     0
300
3/4" = 1'-0"
140
0.75
141
12.0
290
     0
  0
SCALE
  5
64
102
{ACAD_REACTORS
330
47
102
}
330
47
100
AcDbScale
 70
     0
300
1" = 1'-0"
140
1.0
141
12.0
290
     0
  0
SCALE
  5
65
102
{ACAD_REACTORS
330
47
102
}
330
47
100
AcDbScale
 70
     0
300
1-1/2" = 1'-0"
140
1.5
141
12.0
290
     0
  0
SCALE
  5
66
102
{ACAD_REACTORS
330
47
102
}
330
47
100
AcDbScale
 70
     0
300
3" = 1'-0"
140
3.0
141
12.0
290
     0
  0
SCALE
  5
67
102
{ACAD_REACTORS
330
47
102
}
330
47
100
AcDbScale
 70
     0
300
6" = 1'-0"
140
6.0
141
12.0
290
     0
  0
SCALE
  5
68
102
{ACAD_REACTORS
330
47
102
}
330
47
100
AcDbScale
 70
     0
300
1'-0" = 1'-0"
140
12.0
141
12.0
290
     0
  0
ENDSEC
  0
EOF
